Bono Vox


Love-Always See Your Face

2015.07.23 16:40 | 기타 Guitar

Standard guitar tuning: EADGBe

INTRO:
     C               E           Am             F
E--------------------------------------0------------1-----|
B-----------1------------0----------1------------1--------|
G--------0------------1----------2------------2-----------|
D-----2------------2---------2-------------3--------------|
A--3------------2-----------------------------------------|
E---------------------------------------------------------|

                  E
e----------1-----------------------------0----0-------|
b-------2----------------0---------------1----0-------|
g----2---------------1-------------------0----1-------|
d-0---------------2-------------------2-------2-------|
a--------------2-------------------3----------2-------|
e---------------------------------------------0-------|

Verse 1:   C       E      Am   F    D    G        

C E         Am     D             G

Won't somebody please, Help me with my miseries

C E Am D G  

C E         Am     D             G Won't somebody see, yeah what this world has done to me.

Chorus 1:

Am E Am E

And I know, I know

Am E Am E and I say oh, I say

C E Am F that no matter where I go no

D G C Am F D G I will always see your face

Verse 2:  

C E Am F D G C E Am D G Won't somebody please, Help me with my memory  

C E Am D G C E F D G Can somebody see, yeah what this world has done to me. (Yeah Yeah) Chorus 2:  

Am E Am E And I know, I know

Am E Am E and I say oh, I say

C E Am F that no matter where you go no

D G C Am F D G you will always see my face

Solo: (over intro chords strummed)


Chrous 2: Outro:  

C E Am F and no matter where you go no

D G C Am F you will always see my face

C E Am F and no matter where you go no

D G C Am F you will always see my face

C E Am F and no matter where I go no

D G C I will always see your face

E F G


C E F G C Girl, I'm looking I can see your face Yeah, look and you can my face E F G C Yeah, I'm looking at you looking at me


top